TAB archives - Masih

Masih by Ada Band

Guitar chords, tabs, and lyrics



This is a nice song from flop poppy. The piano is played throughout the song. The guitar is
only played in the intro,bridge and outro. hope its correct.

intro

e|----------------------12-10-9-10-9----------------------------------|
B|----------10-9-10------------------10-------------------------------|
G|------6--9--------11------------------9-7-6-6-----6-9-7-6-7-6-------|
D|-7---9-------------------------------------------7-----------7-7/9--|
A|--------------------------------------------------------------------|
E|--------------------------------------------------------------------|

e|------12/14-12-10p9-10p9----12-10-9-10-9-----------------------------|
B|-10/12------------------10--------------10---------------------------|
G|------------------------------------------9-7-6-6----6-9-7-6-7-6-----|
D|----------------------------------------------------7-----------7-7/9|
A|---------------------------------------------------------------------|
E|---------------------------------------------------------------------|


Middle part of the song

e|-----------12-10-9--9h10-9-------------------------------------------|
B|-------10-9----------------10----------------------------------------|
G|----6-9-----------------------9-7-6-6--9-9-9-7-6-7-6------------6----|
D|-7-9------------------------------------------------7-7/9----7-9-----|
A|---------------------------------------------------------------------|
E|---------------------------------------------------------------------|

e|--------------12-10-9------------9-----------------------------------|
B|---------------------12-10-10--12-12---------------------------------|
G|---------------------------------------------------------------------|
D|-7-9-7--7------------------------------------------------------------|
A|---------7-9---------------------------------------------------------|
E|---------------------------------------------------------------------|

End part of song(outro)

e|-------------------12-10-9-9-10-9------------------------------------|
B|---------10-9-10-----------------10----------------------------------|
G|-----6--9--------11----------------9-7-6---6-9-7-6-7-6---------------|
D|-7--9-------------------------------------7-----------7-7/9----------|
A|---------------------------------------------------------------------|
E|---------------------------------------------------------------------|


e|----------------------12-12-10-9---12-12-10-9-10-9-------------------|
B|---------10-9-7---10------------10----------------10-10/12-----------|
G|-----6--9--------9--9------------------------------------------------|
D|-7--9----------------------------------------------------------------|
A|---------------------------------------------------------------------|
E|---------------------------------------------------------------------|				


source: http://www.guitaretab.com/a/ada-band/66688.html

TAB takes copyright law seriously. Please notify us immediately of suspicious behavior.